RED HOT CHILI PEPPERS Tabs, by the way3
Search tabs by artist/band name or song title:  

RED HOT CHILI PEPPERS Tabs - by the way3 Guitar Tablatures, Chords






by the way3 tabs @ 911Tabs
#----------------------------------PLEASE NOTE----------------------------------#
# This file is the author's own work and represents their interpretation of the #
# song. You may only use this file for private study, scholarship, or research. #
#-------------------------------------------------------------------------------#


Artist: Red Hot Chili Peppers *
Album: By The Way
Song: By The Way
Tabbed By: Scott Dorry


Tune Bottom E To D.....


Intro Riff
G-----------------|-----------------|
D-----------------|-----------------|
A-8-8-8-8-8-8-8-8-|-7-7-7-7-7-7-7-7-|
E-----------------|-----------------|
                                                     < Play 4x
G-----------------|----------------------------|
D-----------------|----------------------------|
A-0-0-0-0-0-0-0-0-|-0-0-0-0-0-0-0--1/8-(slide)-|
E-----------------|----------------------------|	                                                            
  


Verse Riff
G-------------------------
D-----------3-------------
A-------3h5---3h5---------  3x
E--0-0-------------3-5----
                                       < Play  4x
G------------------
D-----------3------ 
A-------3h5---5----  1x
E--0-0-------------



Chorus Riff
G------------------|--------------------------
D--3-3-3-3-3-3-3-3-|-10-10-10-10-10-10-10-10--
A------------------|--------------------------
E------------------|--------------------------

G--------------------------|-----------------------------
D--12-12-12-12-12-12-12-12-|-12-12-12-12-12-12-12-12-----
A--------------------------|-------------------------10--
E--------------------------|-----------------------------

G------------------|--------------------------
D--3-3-3-3-3-3-3-3-|-10-10-10-10-10-10-10-10--
A------------------|--------------------------
E------------------|--------------------------

G------------------|-----------------------
D--7-7-7-7-7-7-7-7-|-7-7-7-7-7-7-7-7-10-10-
A------------------|-----------------------
E------------------|-----------------------


Verse Riff
G-------------------------
D-----------3-------------
A-------3h5---3h5---------  3x
E--0-0-------------3-5----
                                       < Play  4x
G------------------
D-----------3------ 
A-------3h5---5----  1x
E--0-0-------------



Intro Riff
G-----------------|-----------------|
D-----------------|-----------------|
A-8-8-8-8-8-8-8-8-|-7-7-7-7-7-7-7-7-|
E-----------------|-----------------|
                                                     < Play 4x
G-----------------|----------------------------|
D-----------------|----------------------------|
A-0-0-0-0-0-0-0-0-|-0-0-0-0-0-0-0--1/8-(slide)-|
E-----------------|----------------------------|	

                                                
  
Verse Riff
G-------------------------
D-----------3-------------
A-------3h5---3h5---------  3x
E--0-0-------------3-5----
                                       < Play  3x
G------------------
D-----------3------ 
A-------3h5---5----  1x
E--0-0-------------



Chorus
G------------------|--------------------------
D--3-3-3-3-3-3-3-3-|-10-10-10-10-10-10-10-10--
A------------------|--------------------------
E------------------|--------------------------

G--------------------------|-----------------------------
D--12-12-12-12-12-12-12-12-|-12-12-12-12-12-12-12-12-----
A--------------------------|-------------------------10--
E--------------------------|-----------------------------
                                                              < Play 2x
G------------------|--------------------------
D--3-3-3-3-3-3-3-3-|-10-10-10-10-10-10-10-10--
A------------------|--------------------------
E------------------|--------------------------

G------------------|---------------------
D--7-7-7-7-7-7-7-7-|-7-7-7-7-7-7-7-7-8-8-
A------------------|---------------------
E------------------|---------------------



Outro
(Guitar And Vocals Only)






RED HOT CHILI PEPPERS Chords - by the way3 Tabs, Tab for Guitar

Site contains RED HOT CHILI PEPPERS tabs (tablatures), chords, song lyrics of popular songs, compilations.
You may find by the way3 - RED HOT CHILI PEPPERS tab, lyric, free tabs for guitars and basses here.


© 2002 TabPower.com All tabs are the author's own work and represents their interpretation of the RED HOT CHILI PEPPERS song.
You may only use this RED HOT CHILI PEPPERS tab for private study, scholarship, or research.
by the way3 Tab by RED HOT CHILI PEPPERS Tabs/Chords/Tablatures
Online Guitar Lessons