NIRVANA Tabs, about a girl3
Search tabs by artist/band name or song title:  

NIRVANA Tabs - about a girl3 Guitar Tablatures, Chords






about a girl3 tabs @ 911Tabs
#----------------------------------PLEASE NOTE----------------------------------#
# This file is the author's own work and represents their interpretation of the #
# song. You may only use this file for private study, scholarship, or research. #
#-------------------------------------------------------------------------------#


Author/Artist: Nirvana
Title: About a Girl
Album: Bleach
Transcribed by: Glenn Pfeiffer
Email: aspone_glenn@hotmail.com

this is my first tab i have submited, so im sorry if its a bit gay.
it should be all right i play it all the time, all though im not sure about the solo.
i would love to get some advice about tab writing so if any1 has any comments pls send em
thanx

the fist stave is the intro and the verse
the second &third r the chorus and post chorus
the forth & fith are the solo

v=down stum
^=up strum

-0--0-0-3-3-3-3-|-0--0-0-3-3-3-3-|-0--0-0-3-3-3-3-|-0-0-0-0-3-3-3-3-|---------
-0--0-0-3-3-3-3-|-0--0-0-3-3-3-3-|-0--0-0-3-3-3-3-|-0-0-0-0-3-3-3-3-|---------
-0--0-0-0-0-0-0-|-0--0-0-0-0-0-0-|-0--0-0-0-0-0-0-|-0-0-0-0-0-0-0-0-|---------
-2--2-2-0-0-0-0-|-2--2-2-0-0-0-0-|-2--2-2-0-0-0-0-|-2-2-2-2-0-0-0-0-|---------
-2--2-2-2-2-2-2-|-2--2-2-2-2-2-2-|-2--2-2-2-2-2-2-|-2-2-2-2-2-2-2-2-|---------
-0--0-0-3-3-3-3-|-0--0-0-3-3-3-3-|-0--0-0-3-3-3-3-|-0-0-0-0-3-3-3-3-|---------
 v  v ^ v ^ v ^   v  v ^ v ^ v ^   v  v ^ v ^ v ^   v ^ v ^ v ^ v ^           

-4-4-4---------0-0-0-0-0-0-|-4-4-4---------0-0-0-0-0-0-|----------------------
-4-4-4-4-4-4---0-0-0-0-0-0-|-4-4-4-4-4-4---0-0-0-0-0-0-|----------------------
-6-6-6-4-4-4-3-3-3-3-3-3-3-|-6-6-6-4-4-4-3-3-3-3-3-3-3-|----------------------
-6-6-6-6-6-6-4-4-4-4-4-4-4-|-6-6-6-6-6-6-4-4-4-4-4-4-4-|----------------------
-4-4-4-6-6-6-4-4-4-4-4-4-4-|-4-4-4-6-6-6-4-4-4-4-4-4-4-|----------------------
-------4-4-4-2-2-2-2-2-2-2-|-------4-4-4-2-2-2-2-2-2-2-|----------------------
 v v ^ v v ^ v v ^ v ^ v ^   v v ^ v v ^ v v ^ v ^ v ^                        

-0--0-0-0-0-0-0-0-0-0-0--0-0-0------------------------------------------------
-0--0-0-0-0-0-0-2-2-2-1--1-1-1------------------------------------------------
-0--0-0-0-0-0-0-2-2-2-0--0-0-0------------------------------------------------
-2--2-2-2-2-2-2-2-2-2-2--2-2-2------------------------------------------------
-2--2-2-2-2-2-2-0-0-0-3--3-3-3------------------------------------------------
-0--0-0-0-0-0-0---------------------------------------------------------------
 v  v ^ v ^ v ^ v ^ v ^  ^ v ^                                                

------------------------------------------------------------------------------
------------------------------------------------------------------------------
-------5-7/9-9-9/12-12-12-12-12-------5-7/9-9-9/12-12-12-12-------------------
-------5-7/9-9-9/12-12-12-12-12-------5-7/9-9-9/12-12-12-12-------------------
---5h7----------------------------5h7-----------------------------------------
-0------------------------------0---------------------------------------------
                                                                              

------------------------------------------------------------------------------
------------------------------------------------------------------------------
-------5-7/9-9-9/12-12-12-12-------5-7/9-9-9-9/12-12-12-12--------------------
-------5-7/9-9-9/12-12-12-12-------5-7/9-9-9-9/12-12-12-12--------------------
---5h7-------------------------5h7--------------------------------------------
-0---------------------------0------------------------------------------------
 after the solo u go into the chorus post chorus and the verse b4 singing     







NIRVANA Chords - about a girl3 Tabs, Tab for Guitar

Site contains NIRVANA tabs (tablatures), chords, song lyrics of popular songs, compilations.
You may find about a girl3 - NIRVANA tab, lyric, free tabs for guitars and basses here.


© 2002 TabPower.com All tabs are the author's own work and represents their interpretation of the NIRVANA song.
You may only use this NIRVANA tab for private study, scholarship, or research.
about a girl3 Tab by NIRVANA Tabs/Chords/Tablatures
Online Guitar Lessons