GREEN DAY Tabs, basket case
Search tabs by artist/band name or song title:  

GREEN DAY Tabs - basket case Guitar Tablatures, Chords






basket case tabs @ 911Tabs
#----------------------------------PLEASE NOTE----------------------------------#
# This file is the author's own work and represents their interpretation of the #
# song. You may only use this file for private study, scholarship, or research. #
#-------------------------------------------------------------------------------#

Song: Basket Case
Artist: Green day
Album: Dookie

Original Tab: Dave miller
Updated:GM (graemejacksonmuir@hotmail.com)
Tuning Corrections: Rhodi Lawrence
Updated and replaced: Graeme Muir

BTA Member

When i originally posted this tab it was tabbed assuming the bass was
tuned down half a step.  However it appears that i neglected to mention
this i will now.  TUNE DOWN HALF A STEP.

The person who version replaced mine was correct about the tuning but
neglected to put in any of the fills which Mike plays.

Play in order shown.

Bass tuned to Gb Db Ab Eb

No bass until chorus.

Chorus 1

Gb|
Db|
Ab|-77-55-4444
Eb|------------5555-7777


chorus verse link

Gb|-1h2
Db|-
Ab|
Eb|

Verse

Gb|------------------------------------------------------------------------|
Db|*------------------------3H4--------------------------1H2--1H2-1H2-1H2-*|
Ab|*----------22222222-44444---4------------------7777-22---22------------*|
Eb| -00000000--------------------44444444-55555555-------------------------|

Chrous

Gb|--------------------------------------------------------------------|
Db|-----------------------7-5-------------------------------6p5-6p5----|
Ab|------------77777777-5-----6-5---------------7777777-5-----------5--|
Eb|-5555-77777--------------------5-5555-777777------------------------|

Gb|---------------------------------|
Db|---------------------------------|
Ab|------------77-55-4444-----------|
Eb|-5555-77777------------5555-7777-|

Link

1st time	2nd Time (repeat several times)
Gb|-----------|-1h2------------|
Db|-2---------|-----2----------|
Ab|---22-44-22|-------22-44-22-|
Eb|-----------|----------------|

Bridge (Grasping to control)

Gb|-----------------------------------|
Db|--------------------------------2h3|
Ab|-----------------------pause-------|
Eb|-555555555-7777777777--------------|

Instrumental Verse

Gb|----------------------------------------------------------------------|
Db|------------------------3H4--------------------------1H2--1H2-1H2-1H2-|
Ab|----------22222222-44444---4------------------7777-22---22------------|
Eb|--00000000--------------------44444444-55555555-----------------------|

Gb|-----------------------------------------------------------------|
Db|------------------------3H4----------------------------9---9-9-9-|
Ab|----------22222222-44444---4-------------------7777--------------|
Eb|--00000000--------------------44444444-55555555-----77--77-------|

Chrous

Gb|--------------------------------------------------------------------|
Db|-----------------------7-5------------------------------6p5-6p5-----|
Ab|------------77777777-5-----6-5---------------7777777-5-----------5--|
Eb|-5555-77777--------------------5-5555-777777------------------------|

Gb|---------------------------------|
Db|---------------------------------|
Ab|------------77-55-4444-----------|
Eb|-5555-77777------------5555-7777-|

Outro

(repeat several times)
Gb|-----------------------|
Db|*---------------------*|
Ab|*-7777-4444----77-----*|
Eb|-----------55---7777---|

(last time only)
Gb|--------------------------|
Db|--------------------------|
Ab|-7777-4444----77----------|
Eb|-----------55---7/17 12-7-|







GREEN DAY Chords - basket case Tabs, Tab for Guitar

Site contains GREEN DAY tabs (tablatures), chords, song lyrics of popular songs, compilations.
You may find basket case - GREEN DAY tab, lyric, free tabs for guitars and basses here.


© 2002 TabPower.com All tabs are the author's own work and represents their interpretation of the GREEN DAY song.
You may only use this GREEN DAY tab for private study, scholarship, or research.
basket case Tab by GREEN DAY Tabs/Chords/Tablatures
Online Guitar Lessons