BLINK 182 Tabs, adams song3
Search tabs by artist/band name or song title:  

BLINK 182 Tabs - adams song3 Guitar Tablatures, Chords






adams song3 tabs @ 911Tabs
#----------------------------------PLEASE NOTE----------------------------------#
# This file is the author's own work and represents their interpretation of the #
# song. You may only use this file for private study, scholarship, or research. #
#-------------------------------------------------------------------------------#

Tabs by: Sam Lowe

Alot of people have this written in standered tuning but there is one 
note that will be to low for that.  So this is a drop d song.  

INTRO
------------------------------------------------------------------
------------------------------------------------------------------
------------------------------------------------------------------
----------2-------------------2------------2----------2--------------
----2----------3----------2--------3----------3---------3---------------
-------------------------------------------------5--------5---------


------------------------------------------------------------------
------------------------------------------------------------------
------------------------------------------------------------------
-------2--------------2----------------2---------2--------------------
----------3---------------3--------------3---------3------------------
-------------3---------------3------------0----------0----------------
VERSE (PALM MUTED)
------------------------------------------------------------------
------------------------------------------------------------------
------5-----5---------------------------------------------5---5-----
------5-----5-------3---3----------7----7--------3---3----5---5------
------3-----3-------3---3----------7----7--------3---3----3---3------
--------------------3---3----------7----7--------3---3------------

IF YOU REALLY WANT THIS TO SOUND MORE FULL THERE ARE A FEW VARAITIONS
YOU CAN ADD A FOURTH NOT TO DROPED D  SO IT WOULD BE AS FOLLOWS

---------------                                                -
---------------                                                -
----5----------9                                               2                                            
----3----------7                                               2
----3----------7<-------this last chord can also be changed to 0
----3----------7                                               -

CHORUS
------------------------------------------------------------------
------------------------------------------------------------------
----5---------7-----------------------------------------------------
----5---------7-----------7--------3----------------------------------
----3---------5-----------7--------3----------------------------------
--------------------------7--------3--------------------------------

THIS IS THE BULF OF THE SONG...I DIDN'T PUT THE LITTLE PART BEFORE THE CHORUS
OR THE PIANO PART IN.  FIND THEM IN ANOTHER TAB.  MOST PEOPLE HAD THEM RIGHT 
JUST DIDN'T HAVE IT IN DROPED D.  AWESOME SONG.  ROCK ON.
QUESTIONS- EMAIL ME @SAMTHEMDMAN@CS.COM









BLINK 182 Chords - adams song3 Tabs, Tab for Guitar

Site contains BLINK 182 tabs (tablatures), chords, song lyrics of popular songs, compilations.
You may find adams song3 - BLINK 182 tab, lyric, free tabs for guitars and basses here.


© 2002 TabPower.com All tabs are the author's own work and represents their interpretation of the BLINK 182 song.
You may only use this BLINK 182 tab for private study, scholarship, or research.
adams song3 Tab by BLINK 182 Tabs/Chords/Tablatures
Online Guitar Lessons