GOB Tabs, taken for granted
Search tabs by artist/band name or song title:  

GOB Tabs - taken for granted Guitar Tablatures, Chords






taken for granted tabs @ 911Tabs
#----------------------------------PLEASE NOTE----------------------------------#
# This file is the author's own work and represents their interpretation of the #
# song. You may only use this file for private study, scholarship, or research. #
#-------------------------------------------------------------------------------#


Song: Taken for Granted
Band: Gob
Tabbed By: Mit (send_in_the_klowns@hotmail.com)


Intro:
e|--------------------------------------------------------------------|
B|-----------------------------13----------------------13-------------|
G|-----------------------------13----------------------13-------------|
D|-6-x-6-66------------------------6-x-6-66---------------------------|
A|-6-x-6-66------------------------6-x-6-66---------------------------|
E|-4-x-4-44-do-eight-times---------4-x-4-44-do-twice--------44-3-2----|

Verse:
e|--------------------------------------------------------------------|
B|--------------------------------------------------------------------|
G|---4-6-----------------4--------------------------------------------|
D|---4-6-6---------------4-4-6----------------------------------------|
A|-2-2-4-6-------------2-2-4-6----------------------------------------|
E|-0-----4-do-3-times--0---2-4-do-once--------------------------------|

Verse2:
e|--------------------------------------------------------------------|
B|--------------------------------------------------------------------|
G|---4-6-----------------4--------------------------------------------|
D|---4-6-6---------------4-4-6----------------------------------------|
A|-2-2-4-6-------------2-2-4-6----------------------------------------|
E|-0-----4-do-4-times--0---2-4-do-once--------------------------------|

Ending:
e|--------------------------------------------------------------------|
B|--------------------------------------------------------------------|
G|---4-6--------------------------------------------------------------|
D|---4-6-6------------------------------------------------------------|
A|-2-2-4-6------------------------------------------------------------|
E|-0-----4------------------------------------------------------------|







GOB Chords - taken for granted Tabs, Tab for Guitar

Site contains GOB tabs (tablatures), chords, song lyrics of popular songs, compilations.
You may find taken for granted - GOB tab, lyric, free tabs for guitars and basses here.


© 2002 TabPower.com All tabs are the author's own work and represents their interpretation of the GOB song.
You may only use this GOB tab for private study, scholarship, or research.
taken for granted Tab by GOB Tabs/Chords/Tablatures
Online Guitar Lessons