BLINK 182 Tabs, adams song2
Search tabs by artist/band name or song title:  

BLINK 182 Tabs - adams song2 Guitar Tablatures, Chords






adams song2 tabs @ 911Tabs
#----------------------------------PLEASE NOTE----------------------------------#
# This file is the author's own work and represents their interpretation of the #
# song. You may only use this file for private study, scholarship, or research. #
#-------------------------------------------------------------------------------#

Song: Adamís Song
Artist: blink-182
Album: Enema of the State
Tabbed by: Cameron Kummer

	This tab should be completely right. I play it with my band, 
and it sounds great. If you find something that sounds better, 
feel free to mail me: Obi-wan24@juno.com

Riff 1 (clean)
e |----------------------------------------------------------------------------
B|----------------------------------------------------------------------------
G|----------------------------------------------------------------------------
D|------2--------2--------2--------2-------2--------2------2--------2-----
A|---------3--------3--------3--------3-------3--------3------3--------3--
E|---5--------5--------3--------3--------1-------1-------0-------1-------- 

Riff 2 (clean)
e |----------------------------------------------------------------------------------------------
B|----------------------------------------------------------------------------------------------
G|------0---------0--------2-----------2------------------------------------------------------
D|---------3---------3---------3-----------3-------2-----------2---------2--------------2---
A|---3--------3---------5---------5--------------------3-----------3---------3-------3------
E|------------------------------------------------5----------5-----------3---------1-----------

Verse (Clean, palm mute this. If you donít know how, see Appendix)
e |-----------------------------------------
B|-----------------------------------------
G|-----------------------------------------
D|--2---2--2--2---2--2------------------
A|--3---3--3--3---3--3------------------
E|--5---5--3--3---1--0------------------

Chorus (just Power Chords, mild distortion. Do each one 8x)
     C    A   C   F   C   A   C       
e|------------------------------------------------------------------------------
B|------------------------------------------------------------------------------
G|--------5---------------5------5-------5--------------5-----------------
D|---7----5---7---3---5---5---5--5---5---5---5---3--5---5--5---3----------
A|---7----3---7---3---5---3---5--3---5---3---5---3--5---3--5---3----------
E|---5--------5---1---7-------7-------7------7---1--7------7---1----------

Riff 3 (clean)

D|--5-----5-------------------------------
A|-----3---------------------------------


Riff 4 (clean)

B|--5--------
G|----5------
D|-------5---

Order
Riff 1 x2
Verse x4
Riff 2 x2
Chorus
Riff 1 x2
Verse x4
Riff 2 x2
Chorus
Riff 3 x16
Riff 4 x16 (?)
Chorus
End on A power chord

Lyrics
(Riff 1)
Verse 1
I never thought
Iíd die alone,
I laughed the loudest
Whoíd have known?
I traced the cord back to the wall
No wonder it was never plugged in at all
I took my time,
I hurried up,
The choice was mine I didnít think enough
Iím too depressed to go on,
Youíll be sorry when Iím gone
(Riff 2)
Chorus 1
I never conquered,
Rarely came,
Sixteen just held such better days,
Days when I could still feel alive,
I couldnít wait to get outside,
The world was wide,
Too late to try,
The tour was over, 
We survived,
I couldnít wait,
Till I got home,
To pass the time in my room alone
(Riff 1)
Verse 2
I never thought,
Iíd die alone,
Another six months Iíll be unknown,
Give all my things,
To all my friends,
Youíll never step foot in my room again,
Youíll close it off, board it up,
Remember the time that I spilled the cup,
Of apple juice in the hall,
Please tell mom this is not her fault
(Riff 2)
Chorus 2
I never conquered,
Rarely came,
Sixteen just held such better days,
Days when I could still feel alive,
I couldnít wait to get outside,
The time was right,
Too late to try,
The tour was over,
We survived,
I couldnít wait,
Till I got home,
To pass the time in my room alone

Piano/Bass/Drums part
Riff 3, Riff 4

Final Chorus (A little different)
I never conquered,
Rarely came,
Tomorrow hold such better days,
Days when I could still feel alive,
I couldnít wait to get outside
The world was wide,
The time goes by,
The tour was over,
I survived,
I canít wait,
Till I get home,
To pass the time in my room alone
(Hit end chord on the last word and let it ring)

APPENDIX
Distortion   
I use mild crunch distortion. If that doesnít work, or you donít know 
what crunch is or you donít have it, try whatever you want, but donít 
use heavy, because it sounds like poop.

Muting
To palm mute, just rest your picking palm at the base of your strings.
It might be weird at first, but youíll get used to it. If you donít, 
and youíre really frustrated, you can finger mute. To do that, simply 
touch the strings lightly instead of pressing them down. It doesnít 
sound as good as palm muting, but it works. Plus this is mainly a 
bass part, so you could rest during the verse, but you get bored when 
you do, trust me. 






BLINK 182 Chords - adams song2 Tabs, Tab for Guitar

Site contains BLINK 182 tabs (tablatures), chords, song lyrics of popular songs, compilations.
You may find adams song2 - BLINK 182 tab, lyric, free tabs for guitars and basses here.


© 2002 TabPower.com All tabs are the author's own work and represents their interpretation of the BLINK 182 song.
You may only use this BLINK 182 tab for private study, scholarship, or research.
adams song2 Tab by BLINK 182 Tabs/Chords/Tablatures
Online Guitar Lessons