BLINK 182 Tabs, adams song5
Search tabs by artist/band name or song title:  

BLINK 182 Tabs - adams song5 Guitar Tablatures, Chords






adams song5 tabs @ 911Tabs
#----------------------------------PLEASE NOTE----------------------------------#
# This file is the author's own work and represents their interpretation of the #
# song. You may only use this file for private study, scholarship, or research. #
#-------------------------------------------------------------------------------#

well i have seen a few badly done out tabs for this song so i have taken the time to fix it.but i did get help from my friend whos a guitar teacher to help me out on the chorus. so the chorus is a joint effort and the rest is all mine all. guitars tuned down a full step!!!!!! not just the low e string like many think it is.

INTRO


let notes ring
----------------------------------------------------
----------------------------------------------------
----------------------------------------------------
----4-0----4-0----4-0---4-0---4-0---4-0---4-0---4-0-
--2------2------0-----0-----------------------------  (x2)
----------------------------3-----3-----0-----3-----

VERSE


pm=====================================
------------------------------------------
------------------------------------------
------------------------------------------
-44444444--------------------------------- (x4)
-55555555-55555555--99999999--55555555----
----------33333333--77777777--33333333----


INTERLUDE 1

let notes ring
---------------------------------------------
---------------------------------------------
------0----0----0----0-----------------------
----7----7----9----9----4-0---4-0--4-0---4-0-
--5----5----7----7----2-----2---------------- (x2)
----------------------------------3----3-----


CHORUS


[gtr 1
[part 1
[clean 
[---------------------------------------------------------------------
[---------------------------------------------------------------------
[--7-7-7-7-7-7-7-7--9-9-9-9-9-9-9-9\-4-4-4-4-4-4-4-4------------------
[--x-x-x-x-x-x-x-x--x-x-x-x-x-x-x-x--x-x-x-x-x-x-x-x-5-5-5-5-5-5-5-5--
[--5-5-5-5-5-5-5-5--7-7-7-7-7-7-7-7\-2-2-2-2-2-2-2-2-x-x-x-x-x-x-x-x--
[----------------------------------------------------3-3-3-3-3-3-3-3--
[i never conquered rarely came. sixteen just held such better days

]gtr 1
]part 2
]clean
]---------------------------------------------------------------------
]---------------------------------------------------------------------
]--7-7-7-7-7-7-7-7--9-9-9-9-9-9-9-9\-4-4-4-4-4-4-4-4------------------
]--x-x-x-x-x-x-x-x--x-x-x-x-x-x-x-x--x-x-x-x-x-x-x-x-5-5-5-5-5-5-5-5--
]--5-5-5-5-5-5-5-5--7-7-7-7-7-7-7-7\-2-2-2-2-2-2-2-2-x-x-x-x-x-x-x-x--
]----------------------------------------------------3-3-3-3-3-3-3-3--
]
]gtr 2 
]part 2
]clean
]---------------------------------------------------
]---------------------------------------------------
]--11-11-11-11-11-11-11-11-11-11-11-11-11-11-11-11--
]--X--X--X--X--X--X--X--X--X--X--X--X--X--X--X--X--- (x2)
]--9--9--9--9--9--9--9--9--10-10-10-10-10-10-10-10--
]---------------------------------------------------
]days when i still felt alive. we couldn't wait to get out-


[gtr 1 
[part 3
[distortion
[-----------------------------------------------------------------------------------
[-----------------------------------------------------------------------------------
[--7-7-7-7-7-7-7-7-9-9-9-9-9-9-9-9-11-11-11-11-11-11-11-11-12-12-12-12-12-12-12-12--
[--x-x-x-x-x-x-x-x-x-x-x-x-x-x-x-x-x--x--x--x--x--x--x--x--x--x--x--x--x--x--x--x---
[--5-5-5-5-5-5-5-5-7-7-7-7-7-7-7-7-9--9--9--9--9--9--9--9--10-10-10-10-10-10-10-10--
[-----------------------------------------------------------------------------------
[
[gtr 2 
[part 3
[distortion
[------------------------------------------------------------------------------------------
[------------------------------------------------------------------------------------------
[-11-11-11-11-11-11-11-11-12-12-12-12-12-12-12-12-11-11-11-11-11-11-11-11-7-7-7-7-7-7-7-7--
[-x--x--x--x--x--x--x--x--x--x--x--x--x--x--x--x--x--x--x--x--x--x--x--x--x-x-x-x-x-x-x-x--
[-9--9--9--9--9--9--9--9--10-10-10-10-10-10-10-10-9--9--9--9--9--9--9--9--5-5-5-5-5-5-5-5--
[------------------------------------------------------------------------------------------
[-side the world was wide, too late to try. the tour was over we'd survived.



]gtr 1 
]part 4
]-----------------------------------------------------------------------------------
]-----------------------------------------------------------------------------------
]--7-7-7-7-7-7-7-7-9-9-9-9-9-9-9-9-11-11-11-11-11-11-11-11-12-12-12-12-12-12-12-12--
]--x-x-x-x-x-x-x-x-x-x-x-x-x-x-x-x-x--x--x--x--x--x--x--x--x--x--x--x--x--x--x--x---
]--5-5-5-5-5-5-5-5-7-7-7-7-7-7-7-7-9--9--9--9--9--9--9--9--10-10-10-10-10-10-10-10--
]-----------------------------------------------------------------------------------
]
]gtr 2 
]part 4
]-----------------------------------------------------------------------------------------
]------------------------------------------------------------------------------------------
]-11-11-11-11-11-11-11-11-12-12-12-12-12-12-12-12-11-11-11-11-11-11-11-11-7-7-7-7-7-7-7-7--
]-x--x--x--x--x--x--x--x--x--x--x--x--x--x--x--x--x--x--x--x--x--x--x--x--x-x-x-x-x-x-x-x--
]-9--9--9--9--9--9--9--9--10-10-10-10-10-10-10-10-9--9--9--9--9--9--9--9--5-5-5-5-5-5-5-5--
]------------------------------------------------------------------------------------------
]i couldn't wait till i got home to pass the time in my room alone



INTERLUDE 2
----------------------------------
----------------------------------
-----0-----0----------0-----0-----
---4-----4-----4----4-----4-----4-
-5-----5-----5----5-----5-----5---
----------------------------------

INTERLUDE 3
----------------------------------------------
----------------------------------------------
--7---7---7---7---7------7---7---7---7---7----
-0---0---0---0---0--0---0---0---0---0---0--0--(x3)
5---5---5---5---5------5---5---5---5---5------
----------------------------------------------








intro
verse1
interlude1
chorus
intro
verse2
chorus
interlude2
interlude3
chorus


im sorry for the crap way i tabed it out. i did it last night
when i was tired. sorry!
if u want the words email me at david99da@yahoo.co.uk 
rock on!
dave






BLINK 182 Chords - adams song5 Tabs, Tab for Guitar

Site contains BLINK 182 tabs (tablatures), chords, song lyrics of popular songs, compilations.
You may find adams song5 - BLINK 182 tab, lyric, free tabs for guitars and basses here.


© 2002 TabPower.com All tabs are the author's own work and represents their interpretation of the BLINK 182 song.
You may only use this BLINK 182 tab for private study, scholarship, or research.
adams song5 Tab by BLINK 182 Tabs/Chords/Tablatures
Online Guitar Lessons