BLINK 182 Tabs, adams song6
Search tabs by artist/band name or song title:  

BLINK 182 Tabs - adams song6 Guitar Tablatures, Chords






adams song6 tabs @ 911Tabs
#----------------------------------PLEASE NOTE----------------------------------#
# This file is the author's own work and represents their interpretation of the #
# song. You may only use this file for private study, scholarship, or research. #
#-------------------------------------------------------------------------------#

Author/Artist: Blink 182
Title: Adam's Song Live (my version but it is the best out of all the adam songs tabs)
Album: The Mark, Tom and Travis Show
Tab By:Zulkarnain Wrss 4/10 2001

i am ****ing sure about this song .Even if it is wrong
please do not beat the ****ing hell out of me
i have seen other tabs and they are half right, but
but, but i am ****ing sure about this song.

Notes: This is one of my fav songs hope u will like it 
First amp settings for the clean guitar have Bass at about 6 Mid at 
about 4 and Treble at about 10 you also want a little Chorus and Reverb.
For the Distorted guitar just crank it up Bass, Mid, Treble, and Gain all to 10 and a little reverb.

Tuning:D
       A
       F                                
       C                                
       G                                
       D 

Intro2x
1------------- ------------- ------------ --------------------
2------------- ------------- ------------ --------------------
3------------- ------------- ------------ --------------------
4----4-0---4-0 ---4-0---4-0- --4-0---4-0- --4-0---4-0---------
5--2-----2---- -0-----0----- ------------ --------------------
6------------- ------------- 3-----3----- 0-----3-------------

Verse:Clean, palm muted 
------------------------------------------------------------------------------
------------------------------------------------------------------------------
-66666666---------------------------------------------------------------------
-66666666-66666666-88888888-44444444------------------------------------------
-44444444-66666666-88888888-44444444------------------------------------------
----------44444444-66666666-22222222------------------------------------------

Interlude2x
1------------------------------------------------------------------
2------------------------------------------------------------------
3--------0--------0--------0--------0------------------------------
4-----7--------7--------9--------9--------4--0----4--0----4-0---4-0
5--5--------5--------7--------7--------2-------2-------------------
6-------------------------------------------------------3-----3----

PreChorus:Clean
------------------------------------------------------------------------------
------------------------------------------------------------------------------
-66666666-88888888------------------------------------------------------------
-66666666-88888888-88888888-44444444------------------------------------------
-44444444-66666666-88888888-44444444------------------------------------------
-------------------66666666-22222222------------------------------------------
                                                                              
------------------------------------------------------------------------------
------------------------------------------------------------------------------
-66666666-88888888----------1111111111111111----------------------------------
-66666666-88888888-88888888-1111111111111111----------------------------------
-44444444-66666666-88888888-9-9-9-9-9-9-9-9-----------------------------------
-------------------66666666---------------------------------------------------
                                                                              
Chorus:Distortion
------------------------------------------------------------------------------
------------------------------------------------------------------------------
-66666666-88888888------------------------------------------------------------
-66666666-88888888-88888888-44444444---------6-Ring-out-at-end-of-second-verse
-44444444-66666666-88888888-44444444---------6--------------------------------
-------------------66666666-22222222---------4--------------------------------
       
Intro2x
1------------- ------------- ------------ --------------------
2------------- ------------- ------------ --------------------
3------------- ------------- ------------ --------------------
4----4-0---4-0 ---4-0---4-0- --4-0---4-0- --4-0---4-0---------
5--2-----2---- -0-----0----- ------------ --------------------
6------------- ------------- 3-----3----- 0-----3-------------

Verse:Clean, palm muted 
------------------------------------------------------------------------------
------------------------------------------------------------------------------
-66666666---------------------------------------------------------------------
-66666666-66666666-88888888-44444444------------------------------------------
-44444444-66666666-88888888-44444444------------------------------------------
----------44444444-66666666-22222222------------------------------------------

Interlude2x                       watch the change on the last part
1------------------------------------------------------------------
2------------------------------------------------------------------
3--------0--------0--------0--------0------------------------------
4-----7--------7--------9--------9--------4--0----4--0----2-0---2-0
5--5--------5--------7--------7--------2-------2-------------------
6-------------------------------------------------------3-----3----

PreChorus:Clean
------------------------------------------------------------------------------
------------------------------------------------------------------------------
-66666666-88888888------------------------------------------------------------
-66666666-88888888-88888888-44444444------------------------------------------
-44444444-66666666-88888888-44444444------------------------------------------
-------------------66666666-22222222------------------------------------------

------------------------------------------------------------------------------
------------------------------------------------------------------------------
-66666666-88888888----------1111111111111111----------------------------------
-66666666-88888888-88888888-1111111111111111----------------------------------
-44444444-66666666-88888888-9-9-9-9-9-9-9-9-----------------------------------
-------------------66666666---------------------------------------------------
                                                                              
Chorus:Distortion
------------------------------------------------------------------------------
------------------------------------------------------------------------------
-66666666-88888888------------------------------------------------------------
-66666666-88888888-88888888-44444444---------6-Ring-out-at-end-of-second-verse
-44444444-66666666-88888888-44444444---------6--------------------------------
-------------------66666666-22222222---------4--------------------------------

Bass Solo then this:Clean
------------------------------------------------------------------------------
------------------------------------------------------------------------------
------------------------------------------------------------------------------
-----4----4----4----4-----4----Repeat-4-Times---------------------------------
--44---44---44---44---444-----------------------------------------------------
------------------------------------------------------------------------------

------------------------------------------------------------------------------
------------------------------------------------------------------------------
-----6----6----6----6-----6-----Repeat-4-Times--------------------------------
--66---66---66---66---666-----------------------------------------------------
------------------------------------------------------------------------------
------------------------------------------------------------------------------

solo part1   play 2x
1------------------------------------------------------------------
2------------------------------------------------------------------
3-------0---0--------0---0--------0---0--------0---0---------------
4-----4---4---4----4---4---4----4---4---4----4---4---4-------------
5---5--------------------------------------5-----------------------
6----------------0------------2------------------------------------

solo part2 play 2x
1------------------------------------------------------------------
2------------------------------------------------------------------
3------7---7---7---7---7-------------------------------------------
4--0-0---0---0---0---0---------------------------------------------
5------------------------------------------------------------------
6------------------------------------------------------------------

Ending:Distortion
------------------------------------------------------------------------------
------------------------------------------------------------------------------
-66666666-88888888------------------------------------------------------------
-66666666-88888888-88888888-44444444------------------------------------------
-44444444-66666666-88888888-44444444------------------------------------------
-------------------66666666-22222222------------------------------------------

------------------------------------------------------------------------------
------------------------------------------------------------------------------
-66666666-88888888----------1111111111111111----------------------------------
-66666666-88888888-88888888-1111111111111111----------------------------------
-44444444-66666666-88888888-9-9-9-9-9-9-9-9-----------------------------------
-------------------66666666---------------------------------------------------


------------------------------------------------------------------------------
--------------------------------------Play-this-twice-------------------------
-66666666-88888888------------------------------------------------------------
-66666666-88888888-88888888-44444444--------------------6-Ring-out-second-time
-44444444-66666666-88888888-44444444--------------------6---------------------
-------------------66666666-22222222--------------------4---------------------
                                                                           







BLINK 182 Chords - adams song6 Tabs, Tab for Guitar

Site contains BLINK 182 tabs (tablatures), chords, song lyrics of popular songs, compilations.
You may find adams song6 - BLINK 182 tab, lyric, free tabs for guitars and basses here.


© 2002 TabPower.com All tabs are the author's own work and represents their interpretation of the BLINK 182 song.
You may only use this BLINK 182 tab for private study, scholarship, or research.
adams song6 Tab by BLINK 182 Tabs/Chords/Tablatures
Online Guitar Lessons