QUEEN Tabs, bohemian rhapsody3
Search tabs by artist/band name or song title:  

QUEEN Tabs - bohemian rhapsody3 Guitar Tablatures, Chords






bohemian rhapsody3 tabs @ 911Tabs
#----------------------------------PLEASE NOTE----------------------------------#
# This file is the author's own work and represents their interpretation of the #
# song. You may only use this file for private study, scholarship, or research. #
#-------------------------------------------------------------------------------#

Song: Bohemian Rhapsody
Artist: Queen
Album: A Night at the Opera
Submitted and tabbed by Brandon Williams 
e-mail: Bwillia1074@cs.com

The song goes sort of like this.  It may not be exactly right but it sounds pretty close.

Riff 1:
|----------3-1------------5-3-----------------7-5-------|
|--------3----------------------------------4-----------|
|------3----------------4-----------------5-------------|
|----3----------------5-----------------5---------------|
|-1----------------5-----------------3------------------|
|----------------3--------------------------------------|
Mama      just killed a man,  put a gun against his head
 
 C7
Pulled my trigger now he's dead
W/RIFF 1                                         Gm
Mama, life had just begun, but now I've gone and thrown it all away
 Eb                 Bb
Mama, ooh ooh ooh, didn't mean to make you cry
 C                                     Eb        Bb
If I'm not back again this time again tomorrow, carry on, carry on
 C                           F
As if nothing really matters
                                                                            |----------|
W/RIFF 1                                                                    |----------|
Too late my time has come, sent shivers down my spine                       |----------|
 C7                                                                         |----------|
Body's aching all the time                                                  |----------|
W/RIFF 1                                                                    |-5~-4~-3~-|
Good-bye, everybody, I've got to go, gotta leave you all behind and face the truth
 Eb                 Bb
Mama, ooh ooh ooh, I don't wanna die
 C
Sometimes wish I'd never been born at

|-------------------------------------------------15-16-18-20-18-16-15-
|-------------11-8-13--15-16-13-15-16-18-------18----------------------
|----10^-10p8-------------------------------17-------------------------
|-8~-------------------------------------17----------------------------
|----------------------------------------------------------------------
|----------------------------------------------------------------------
 all

-15h16p15-----------------------------------------15h16h18----------------15h16h18-20-
----------18-16-15h16p15-----------------15h16h18----------------15h16h18-------------
-------------------------17-15-15~-15h17-------------------15h17----------------------
--------------------------------------------------------------------------------------
--------------------------------------------------------------------------------------
--------------------------------------------------------------------------------------

-------------------------------------|
-15-16-13~-15-16-13~-15-16-15-16-18~-|
-------------------------------------|
-------------------------------------|
-------------------------------------|
-------------------------------------|





QUEEN Chords - bohemian rhapsody3 Tabs, Tab for Guitar

Site contains QUEEN tabs (tablatures), chords, song lyrics of popular songs, compilations.
You may find bohemian rhapsody3 - QUEEN tab, lyric, free tabs for guitars and basses here.


© 2002 TabPower.com All tabs are the author's own work and represents their interpretation of the QUEEN song.
You may only use this QUEEN tab for private study, scholarship, or research.
bohemian rhapsody3 Tab by QUEEN Tabs/Chords/Tablatures
Online Guitar Lessons