RADIOHEAD Tabs, my iron lung2
Search tabs by artist/band name or song title:  

RADIOHEAD Tabs - my iron lung2 Guitar Tablatures, Chords






my iron lung2 tabs @ 911Tabs
#----------------------------------PLEASE NOTE----------------------------------#
# This file is the author's own work and represents their interpretation of the #
# song. You may only use this file for private study, scholarship, or research. #
#-------------------------------------------------------------------------------#

Radiohead: my iron lung


This is the basic outline of the song. Just repeat certain parts of the tab to 
finish the song off. Enjoy



INTRO: using a pitch shifter
e------------------------------------------------------------------------------|
B:----3-0--0---1-----------3-0--0---1---4----3-0--0---1-1-3b4r3-1-0------------|
G:---0----0-0-0-0-2b3r2p0-0----0-0-2-2-5-5--0----0-0-0-0-----------------------|
D:-------3---1----------------3---1---4---------3---1--------------------------|
A:-----------------------------------------------------------------------------|
E:--3--------------------3----------------3------------------------------------|


e:-----------------------------------------------------------------------------|
B:----3-0--0---1---------------------------------------------------------------|
G:---0----0-0-0-0-2b3r2p0------------------------------------------------------|
D:-------3---1-----------------------------------------------------------------|
A:-----------------------------------------------------------------------------|
E:--3--------------------3-----------------------------------------------------|
									 			

VERSE: "You don't mean it but...
e-----------------------------------3------------------------------------------|
B:----0--------1-------3-3-4-3-4-3-4-4-3---------------------------------------|
G:---0---0----0--0----0-0---------------0--------------------------------------|
D:--0-----0--1----1--0---------------------------------------------------------|
A:----------3------------------------------------------------------------------|
E:-3----------------3----------------------------------------------------------|


e------------------------------------------------------------------------------|
B:----3-0--0---1-----------3-0--0---1-1-3b4r3-1-1-0----------------------------|
G:---0----0-0-0-0-2b3r2p0-0----0-0-0-------------------------------------------|
D:-------3---1----------------3---1--------------------------------------------|
A:-----------------------------------------------------------------------------|
E:--3--------------------3-----------------------------------------------------|


VERSE:  "we're too young to fall asleep... 
e--3-----------------------------3------------------------2------------------3-|
B:--4-3---------------------------4-3----------------------4-3-33-3h4p3h4p3h4-4|
G:-----0-----------------------------0-----------------------------------------|
D:-----------------------------------------------------------------------------|
A:-----------------------------------------------------------------------------|
E:-----------------------------------------------------------------------------|


VERSE: "a scratch...		
e------------------2/-----------2/---------------------------------------------|
B------------------2/-----------2/---------------------------------------------|
G:-----------------0/-----------0/---------------------------------------------|
D:-----------------0/-----------0/---------------------------------------------|
A:-----------------2/-----------2/---------------------------------------------|
E:---------------3x3/---------3x3/---------------------------------------------|


VERSE: "We are grateful for my iron lung...
e------------------------------------------------------------------------------|
B:----0--------1-------3-3-4-3-4-3-4-4-3---------------------------------------|
G:---0---0----0--0----0-0---------------0--------------------------------------|
D:--0-----0--1----1--0---------------------------------------------------------|
A:----------3------------------------------------------------------------------|
E:-3----------------3----------------------------------------------------------|
JOIN to CHORUS:
e------------------------------------------------------------------------------|
B:----3-0--0---1-----------3-0--0----------------------------------------------|
G:---0----0-0-0-0-2b3r2p0-0----0-0--12-11-10-9x8x7-----------------------------|
D:-------3---1----------------3------------------------------------------------|
A:----------------------------------10--9--8-7x6x5-----------------------------|
E:--3--------------------3-----------------------------------------------------|
				    Heavy distortion

CHORUS:
e------------------------------------------------------------------------------|
B:---3--3--3-5b6r5p3-----3--3--------------------------------------------------|
G:---3--3--3-5b6r5p3-----3--3--12-11-10-9x8x7----------------------------------|
D:------------------5----------------------------------------------------------|
A:--------3--------------------10--9--8-7x6x5----------------------------------|
E:--3--3--------------0-0--0---------------------------------------------------|
								          Repeat


This is the basic outline of the song. Just repeat certain parts of the tab to 
finish the song off.







RADIOHEAD Chords - my iron lung2 Tabs, Tab for Guitar

Site contains RADIOHEAD tabs (tablatures), chords, song lyrics of popular songs, compilations.
You may find my iron lung2 - RADIOHEAD tab, lyric, free tabs for guitars and basses here.


© 2002 TabPower.com All tabs are the author's own work and represents their interpretation of the RADIOHEAD song.
You may only use this RADIOHEAD tab for private study, scholarship, or research.
my iron lung2 Tab by RADIOHEAD Tabs/Chords/Tablatures
Online Guitar Lessons