ROLLING STONES Tabs, angie2
Search tabs by artist/band name or song title:  

ROLLING STONES Tabs - angie2 Guitar Tablatures, Chords






angie2 tabs @ 911Tabs
#----------------------------------PLEASE NOTE----------------------------------#
# This file is the author's own work and represents their interpretation of the #
# song. You may only use this file for private study, scholarship, or research. #
#-------------------------------------------------------------------------------#


Angie - Rolling Stones

Intro

   *Harmonic(natural)
e|------0-0---3-0------------0------0----3-----1-1-1---1------1-----|
B|------1---1-0-0---1-------3-3---3-----3-3----1-1--1-------------1-|
G|------2---2------2-------4---4--4----5---5---3-2----2----0-0-----0|
D|------2------------2-0--------------5-----5--3-3---3----3--2---0--|
A|-12*-----------------------------------------1-3-------3---3--2---|
E|------------------------0------4----------------------------------|

  Chord Am* version       Chord E*
e|-----0------|            e|--0--|
B|---1-1-3-1--|            B|--1--|
G|-2-2--------|            G|--0--|
D|-2----------|            D|--0--|
A|-0----------|            A|--2--|
E|------------|            E|-----|

  Chord C* version
e|-1-0-0-0--|
B|-1-1-3-1--|
G|-0-0-0-0--|
D|-2-2-2-2--|
A|-3-3-3-3--|
E|----------|

Solo(piano+guitar) find the rhythm on these tabs

e|---8-7-5----7-----------6-5-3-6-5-3-5--1-0-0-0--0--|
B|---5-5-5----9--10--9----3-3-3-3-3-3-3--1-1-3-1--1--|
G|---5-5-5--9-----9--9--5-5-5-5-5-5-5-5--0-0-0-0--0--|
D|-7--------9-----9--9--5----------------2-2-2-2--0--|
A|-7--------7-----------3----------------3-3-3-3--2--|
E|-5-------------------------------------------------|

e|---8-7-8-5-----7--7---6-5-3-6-5-3-5--1-0-0-0--|
B|---5-5-5-5----10--9---3-3-3-3-3-3-3--1-1-3-1--|
G|---5-5-5-5--9--9--9-5-5-5-5-5-5-5-5--0-0-0-0--|
D|-7----------9-------5----------------2-2-2-2--|
A|-7----------7-------3----------------3-3-3-3--|
E|-5--------------------------------------------|


The song :

Intro

Am*     E   E7
Angie , Angie
C9              Bb9    F      C*     E*
When will those clouds all disappear
Am*     E   E7
Angie , Angie
C9           Bb9  F        C*   
Were will it lead us from here
C       G
With no loving in our souls
       Dm           Am
and no money in our coats
C         F              G
You can't say we're satisfied
Am*     E   E6 E7
Angie , Angie
C9        Bb9 F         C*     E*
You can't say we never tried
Am*     E                    E7
Angie , you're beautiful ... yeah
C9           Bb9  F           C*     E*
but ain't it time we said goodbye
Am*     E            E7
Angie , I still love you
C9       Bb9    F             C*     
Remember all those nights we cried
C        G
All the dreams we held so close
          Dm            Am
Seemed to all go up in smoke
C      F               G
Let me whisper in your ear
Am*     E   E7
Angie , Angie
C9            Bb9  F       C*     E*
Where will it lead us from here

(Solo)
C  G
Oh Angie don't you weep
         Dm                 Am
All your kisses still taste sweet
C          F               G
I hate the sadness in your eyes
Am*         E  E7
But Angie , Angie
C9       Bb9  F           C*     E*
Ain't it time we said goodbye...yeah

(solo)

C       G
With no loving in our souls
       Dm           Am
and no money in our coats
C         F              G
You can't say we're satisfied
    Dm                       Am
But Angie , I still love you baby
Dm                           Am
Everywhere I look I see your eyes
Dm                             Am
There ain't a woman that comes close to you
C       F             G
Come on baby dry your eyes
Am*     E  E7
Angie , Angie
C9       Bb9  F      C*     E*
Ain't it good to be alive
Am*     E  E7
Angie , Angie
C9         Bb9 F         C*     
They can't say we never tried

 
 
Chords:

Bb9:113311

C9 :335533

                -
                  \
             --___!________\     Elad Matari Tabs
             --   !        /
                  /              eladmat@walla.co.il
                 -







ROLLING STONES Chords - angie2 Tabs, Tab for Guitar

Site contains ROLLING STONES tabs (tablatures), chords, song lyrics of popular songs, compilations.
You may find angie2 - ROLLING STONES tab, lyric, free tabs for guitars and basses here.


© 2002 TabPower.com All tabs are the author's own work and represents their interpretation of the ROLLING STONES song.
You may only use this ROLLING STONES tab for private study, scholarship, or research.
angie2 Tab by ROLLING STONES Tabs/Chords/Tablatures
Online Guitar Lessons