RADIOHEAD Tabs, i might be wrong2
Search tabs by artist/band name or song title:  

RADIOHEAD Tabs - i might be wrong2 Guitar Tablatures, Chords






i might be wrong2 tabs @ 911Tabs
#----------------------------------PLEASE NOTE----------------------------------#
# This file is the author's own work and represents their interpretation of the #
# song. You may only use this file for private study, scholarship, or research. #
#-------------------------------------------------------------------------------#

Song: 'I might be wrong'
Artist: Radiohead

Ok, this isn't the full song, I worked it out from the Jools Holland
Radiohead special, the tuning is DAGDBE (drop the D). There's a bit
in the middle where I can't figure out what Jonny does. 

e----------
B----------
D----------
G--0---0---
A----------
D-0--/5--3-

e------------------------
B------------------------
D------------------------
G--0---0--0--0---0--0--0-
A------------------------
D-8--/3--3--2--8--/3--3--2

e-----------------------
B-----------------------
D-----------------------
G--0--0--0--0---0---0--0
A-----------------------
D-8--8--7--7--10--10--8-

e------------
B------------
D------------
G--0--0---0--
A------------
D-0--5--/7--5

e------------------------------------------------
B------------------------------------------------
D------------------------------------------------
G--0------0--0--0--0------0--0--0--0------0--0--0
A------------------------------------------------
D-0--5--/8--7--7--0--5--/7--5--5--0--3--/5--3--3-

That's pretty much it. Any corrections...(you know the deal) E-mail me
Strat_Loz@Hotmail.com





RADIOHEAD Chords - i might be wrong2 Tabs, Tab for Guitar

Site contains RADIOHEAD tabs (tablatures), chords, song lyrics of popular songs, compilations.
You may find i might be wrong2 - RADIOHEAD tab, lyric, free tabs for guitars and basses here.


© 2002 TabPower.com All tabs are the author's own work and represents their interpretation of the RADIOHEAD song.
You may only use this RADIOHEAD tab for private study, scholarship, or research.
i might be wrong2 Tab by RADIOHEAD Tabs/Chords/Tablatures
Online Guitar Lessons