BLINK 182 Tabs, all the small things4
Search tabs by artist/band name or song title:  

BLINK 182 Tabs - all the small things4 Guitar Tablatures, Chords






all the small things4 tabs @ 911Tabs
#----------------------------------PLEASE NOTE----------------------------------#
# This file is the author's own work and represents their interpretation of the #
# song. You may only use this file for private study, scholarship, or research. #
#-------------------------------------------------------------------------------#

"All the Small Things" (-->Blink 182<--)
Tabbed by: Taxi-Gurl

taxi-gurl@mbox.com.au

* Palm Muted

Intro:  

      G    F    
E|--------------|         
B|--------------|
G|--------------|
D|----5----3----|       
A|----5----3----|
E|----5----1----|    then....


      C      Fii     G      *A        F 
E|------------------------------------------|
B|------------------------------------------|
G|----5------10-----------------------------|
D|----5------10------5-------7--------3-----|
A|----3-------8------5-------7--------3-----|
E|-------------------3-------5--------1-----|

Verse 1:

    C             G                F             G 
All the/small things/true care/truth brings
     C          G           F             G        
I'll take/one lift/your ride/best trip
     C           G          F            G
Always/I know/you'll be/at my show
     C            G                F            G (let ring)        
Watching/waiting/commiserating...  

Chorus:
         
Say it ain't so
I will not go
Turn the lights off
Carry me home...

       C              G               F     
Na na na na.... 

(2x)         


      C      Fii     Eii     D    *A     F 
E|---------------------------------------------|
B|---------------------------------------------|
G|----5------10-------9------7-----------------|
D|----5------10-------9------7-----7-----3-----|
A|----3-------8-------7------5-----7-----3-----|
E|---------------------------------5-----1-----|

(2x)

Verse 2:

    C         G          F         G
Late night/come home/work sucks/I know
    C         G                F                           G (let ring)
She left me roses by the stairs/surprises let me know she cares....

CHORUS

Bridge:

(Palm muted)

E|--------------|         
B|--------------|
G|------5---5---|
D|----5---5-----|       
A|--------------|
E|--------------| 

FINISHING:

        C                    G                               F
Say it ain't so/I will not go/turn the lights off/carry me home
        C                               G                                   F
Keep your head still/I'll be your thrill/the night will go on/my little windmill
        C                    G                              *F (2x) 
Say it ain't so/I will not go/turn the lights off/carry me home
        C                              G                   *F (4x)                 C   
Keep your head still/I'll be your thrill/the night will go on (2x) /my little windmill.



Ok, I hope u enjoy this one... it's as rite as I can get it to be. If you have it, email me the tabs to Blink 182's new song (Man Overboard). Thanks!!  

Becca





BLINK 182 Chords - all the small things4 Tabs, Tab for Guitar

Site contains BLINK 182 tabs (tablatures), chords, song lyrics of popular songs, compilations.
You may find all the small things4 - BLINK 182 tab, lyric, free tabs for guitars and basses here.


© 2002 TabPower.com All tabs are the author's own work and represents their interpretation of the BLINK 182 song.
You may only use this BLINK 182 tab for private study, scholarship, or research.
all the small things4 Tab by BLINK 182 Tabs/Chords/Tablatures
Online Guitar Lessons