GUNS N ROSES Tabs, heartbreak hotel
Search tabs by artist/band name or song title:  

GUNS N ROSES Tabs - heartbreak hotel Guitar Tablatures, Chords






heartbreak hotel tabs @ 911Tabs
#----------------------------------PLEASE NOTE----------------------------------#
# This file is the author's own work and represents their interpretation of the #
# song. You may only use this file for private study, scholarship, or research. #
#-------------------------------------------------------------------------------#

Song: Heartbreak Hotel
Artists:Guns N'Roses
Song writer: Elvis Presley and some guy.
Transcribed by Harlen Crier
This is of course a half step song, also give it time in between verses
And this intro is a Wah-Wah pedal intro so have fun and cry on.(?) 
(+) toe down (-) toe up
meet  +-  +      -   +  +       -   + and so on                                                                                                             
E|---------------------------------------------------------------------------------12-13--------------------------
B|----------15--15-15------13 15------15--- 15--- 15 -----13--------15------------15 13-12----------                                                              
G|------14--------------14-----------14--------------------14--------14------------------------------14--12                                                                               
D|--------------------------------------------------------------------------------------------------------------------                                   
A|-------------------------------------------------------------------------------------------------------------------                                      
E|--------------------------------------------------------------------------------------------------------------------      
         well since  my   ba  -by    left  me    I   found a new place to     dwell         its down at the inn      of lone    -ly  street thats                                                                                                                                                                    
E|--------------------------------------------------------------------------------------------------------------------
B|---------15--12--------------------------------------------------------------------------------------
G|--14-------------------14---12------A--bluezy type feel next------------------------------------------
D|----------------------------------------Tempo--of-66-------------------------------------------
A|----------------------------------------under-the-key-of-A----------------------------------------------------
E|--------------------------------------------------------------------------------------------------------------------    
  
                   Heart Break        Ho-tel
My favorite part next is with the bass as shown
bass riff A
G|--------------------------------------------------------------------------------------------------------------------
D|------------0-0-0-0-0-0-0-0-(Or)------------------------------------------------------------------------------
A|--0-----3----------------------------0---3---5-5-5-5-5-5-5-5-5-5-5-5--------------------------------------
E|--------------------------------------------------------------------------------------------------------------------
W/Slappin on the D note
Do that about eight times and at the fouth enter the high hats closed of course and have one guitar slam a D chord with his hands once and let the feed back do the rest, while another is still doing it four more times, at the seventh time the bass is doing the riff A enter the cow bell.
then D chord strumming at a tempo of 160 and hard rock and also maybe some Bminor, the solo is a different story, I'll attack it next time! Till then keep rockin'!!!!






GUNS N ROSES Chords - heartbreak hotel Tabs, Tab for Guitar

Site contains GUNS N ROSES tabs (tablatures), chords, song lyrics of popular songs, compilations.
You may find heartbreak hotel - GUNS N ROSES tab, lyric, free tabs for guitars and basses here.


© 2002 TabPower.com All tabs are the author's own work and represents their interpretation of the GUNS N ROSES song.
You may only use this GUNS N ROSES tab for private study, scholarship, or research.
heartbreak hotel Tab by GUNS N ROSES Tabs/Chords/Tablatures
Online Guitar Lessons