ROLLING STONES Tabs, angie4
Search tabs by artist/band name or song title:  

ROLLING STONES Tabs - angie4 Guitar Tablatures, Chords






angie4 tabs @ 911Tabs
#----------------------------------PLEASE NOTE----------------------------------#
# This file is the author's own work and represents their interpretation of the #
# song. You may only use this file for private study, scholarship, or research. #
#-------------------------------------------------------------------------------#

ANGIE

by The Rolling Stones 
(Jagger, Richards)
Album: Goats Head Soup (1973)



INTRO: Guitar 1 (Acoustic)

  Am
E|-------------------------|-0--0--0-----3-0---------|
B|-------------------------|-1-----1-----1-----1-----|
G|-------------------------|-2-----2---------2-------|
D|-------------------------|-2---------2---------2-2-|
A|----------{12}-----------|-------------------------|
E|-------------------------|-------------------------|

 E7                         Gsus4           F4 F
|--------0-----------0-----|--------3--------------1--|
|------3---3-----3---------|------3---3--------------1|
|----4-------4---4-----4-0-|----5-------5---3--2------|
|--------------------------|-5------------5-3--3------|
|--------------------------|--------------------------|
|-0------------4-----------|--------------------------|

                            VERSE
                                  Angie
        Csus4 C     Gsus4/B Am 
|-----1-----------0--------|-----0---------5-5-5-3----|
|-----------1-----1-----1--|-----1---------5-5-5-3----|
|---2---------0-----------0|-----------------------5--|
|-3-------3---2-------0----|-2----------2-------------|
|-------3-----------2------|-0------------------------|
|--------------------------|--------------------------|


           Angie            when will those clouds all disappear
 E7                         Gsus4     G  F4 F
|-----------0---0---0------|----3--3------------------|
|---------3---3-3---3------|----3--3------------------|
|-------4-------4-------X--|----5--5-----3--2---------|
|--------------------------|-5--------0--3--3---------|
|--------------------------|-----------------------3--|
|-0------------------------|--------------------------|

                            Angie
 C(add4)    C               Am
|------0-------------------|---------------5-5-5-3----|
|--1-----------------------|---------------5-5-5-3----|
|--0--------0-----------0--|-------2---------------5--|
|---------3-0h2----2-------|------------2-------------|
|---------3-3---------2----|--0-----------------------|
|--------------------------|--------------------------|

 Angie                      where will it lead us from 
 E7                         Gsus4      G  F4 F
|------0--0----0-------0---|--------3-----------------|
|------3---------3---3-----|--------3--3--------------|
|------4----4------4-----0-|-----5--5--4--3--2--------|
|--------------------------|--5--------0--3--3--------|
|--------------------------|-----------------------3--|
|--0-----------------------|--------------------------|

                           CHORUS
her                With no  lovin' in our souls and no
C(add4)       C                (This bar has been fixed)
|-----0------------0--0----|5-5-5-5-5-5-5-5-5-5-5-3-3-3-X|
|---------------------1--0-|3---3---3---3---3---3-3-3-3--|
|--0----------0----------0-|------------4---4------------|
|--3----------2------------|------------5---5------------|
|-------------3------------|-----------------------------|
|--------------------------|-----------------------------|

 money in our coats         you can't say we're satisfied
 Dm       Am                C              F  
|---1-1-X-0---0---0------0-|---3-3-3-3-3-0---3-3-3-1--|
|---3-3-X-1-----1----------|---1---1-1-1-0---1--------|
|---2-----------2---2------|---0---0---0---2---------X|
|-0---------2---2---2--2---|---2-------2---3---------X|
|-----------0----------0---|3----------3--------------|
|--------------------------|--------------------------|
                       
                             Angie       
 G                          Am
|-5-5-5-5-5-5-3-5-3-5p3----|--------5-5-5-5-5-3-------|
|-3---3---3---3-3-3-3------|--------5-5-5-5-5-3---3-5-|
|-------------4---4-4------|--------------------5-3-5-|
|-----------------------5--|--------------------------|
|--------------------------|-0------------------------|
|--------------------------|--------------------------|

 Angie                      you can't say we never tried
 E7                           Gsus4    G  F4 F   
|--------0-0------0--0-----|-----3--3-----------------|
|--------3--------2--3--3--|-----3--3--3--------------|
|--------4--------3--4--4--|-----5--5--4--3--2--------|
|--------------------------|--5-----5--5--3--3--------|
|--------------------------|--------------------------|
|-0------------------------|--------------------------|
                             
                            VERSE
                            Angie                 you're
  Csus4    C                Am
|--------------------------|---------------5-5-5-3----|
|--------------------------|---------------5-5-5-3-5--|
|--------------------------|-----------------------5--|
|-3-----3--2---------------|-2------------------------|
|-3-----3--3---------------|-0------------------------|
|--------------------------|--------------------------|

 beutiful        yes        but ain't it time we said good
 E7                          G Gsus4     F4 F
|-----------0---0----0-0---|--------------------------|
|---------3-----3----3-3---|----3--3--3---------------|
|---------4---4------------|-4--5--5--4--3--2---------|
|--------------------------|-5--5--5--5--3--3---------|
|--------------------------|-----------------------3--|
|-0------------------------|--------------------------|

bye                                 Angie
  Csus4     C        G      Am
|-----------------0--------|-------0--------5--5-3----|
|-----------------1--------|----------------5--5-3-5--|
|-----0--------------------|-----------------------5--|
|--3-----3--0h2---------0--|--2-----------------------|
|--3--------3--------2-----|--0-----------------------|
|--------------------------|--------------------------|

 I still love ya            Remember all those nights we
  E7                         G Gsus4  G  F4 F
|---------0--------0-------|--------------------------|
|-------3-----3----3----0--|----3--3--3---------------|
|-------4-----4----4--4----|-4--5--5--4--3--2---------|
|--------------------------|-5--5--5-----3--3---------|
|--------------------------|-----------------------3--|
|--0-----------------------|--------------------------|
                            
                            CHORUS
cried           All those dreams we held so close seemed to all 
 Csus4       C       G
|------0----------0--------|-5-5-5-5-5-3-5-5-5-3---3--|
|--1--------------1--------|-3-3---3-3---3---3-3---3--|
|--0-----------------------|-4-----4-----4---4-----4--|
|--3------3--2----------0--|-5-----5-----5---------5--|
|---------3--3-------2-----|--------------------------|
|--------------------------|--------------------------|


    go up in smoke           let me whiper in your ear 
 Dm             Am          C
|-----1-1-----------0-0----|-----3-3--3------3-3--3---|
|-----3----3----------1----|-----1----1------1------1-|
|-----2------2----2--------|-----0---------2--------2-|
|--0------------2----------|------------2--3--------3-|
|---------------0-------0-2|--3---------3-------------|
|--------------------------|--------------------------|

                             Angie
 G                          Am
|------5-5-3---5-3---X5-3-3|p0----5-5-5-5-5-3---------|
|------3-3-3---3-----X-----|------5-5-5-5-5-3-5-------|
|----4--------------4------|------------------5-------|
|----5------------5--------|--------------------------|
|--------------------------|--------------------------|
|--------------------------|--------------------------|

 Angie                      where will it lead us from  
 E7                         Gsus4    G  F4 F
|------0----0-0------------|----3--3--------1---------|
|------3------3------------|----3--3--3-----1---------|
|------4------4----------4-|----5--5--4--3--3---------|
|--------------------------|-5-----5--5--3--3---------|
|--------------------------|--------------------------|
|--------------------------|--------------------------|
 
                            INTERLUDE
 here
  F        C                 Am
|--------------------------|---------5-5-5-3----------|
|--------------------------|---------5-5-5-3-5--------|
|----------------------0-0-|-----------------5--------|
|-3-----3--2-----------0---|-2------------------------|
|-3--------3---------------|-0------------------------|
|--------------------------|--------------------------|
 
 E7                          Gsus4     G  F4 F
|----------0---------------|--------------------------|
|--------3---2-3-----------|-----3--3-----------------|
|--------4---3-4--------4--|-----5--5--4--3--2--------|
|--------------------------|--5--5--5--5--3--3--------|
|--------------------------|--------------------------|
|-0------------------------|--------------------------|

  F     C           G       Am
|-------0---------0--------|------5-5-5-5-5-3---------|
|-----------------1--------|------5-5-5-5-5-3-5----5--|
|-----------------------0--|------------------5----5--|
|-3---------0h2------------|-2------------------------|
|-3---------3--------2-----|-0------------------------|
|--------------------------|--------------------------|

  E7                             Gsus4 G  F4 F
|----------0-----0---------|--------------------------|
|--------3---3---3---------|-----3--3--3--1--1--------|
|--------4-----4-4---------|-----5--5--4--3--2--------|
|--------------------------|-----5--5--5--3--3--------|
|--------------------------|--------------------------|
|--------------------------|--------------------------|
                              
                            CHORUS
                            Angie don't you weep all your
  Csus4      C              G
|---------0----------------|5-5-5-5-5-5-5-5-5-5-5-5-5-3-3|
|---------1--1-------------|3---3-3-3---3---3---3---3---3|
|-0-------0--0-------------|--------4---4---4---4---4---4|
|-3-------3--2-------------|--------5-------5-----------5|
|-3-------3--3-------------|-----------------------------|
|--------------------------|-----------------------------|

kisses still tast sweet       I hate that sadness in your eyes
 Dm           Am             C             F
|---1-1---1-0-0---0-0-0---0|-----3-3--3-3-----3-3-3-3-|
|---3-3---3-0-1---1--------|-----1------1-----1-----1-|
|---2---2---0-----------2--|---0-----------2--2-----2-|
|0--------------2----------|-2-------------3--------3-|
|---------------0----------|-3------------------------|
|--------------------------|--------------------------|

                     But    Angie
  G                          Am
|------5-3-5-5p3-5-----5-5-|----5-5-5-5-5-5-5-3-------|
|------3---------3-----3-3-|----5-5-5-5-5-5-5-3-5-----|
|---4------------4-4-4-4-4-|--------------------5-----|
|-5----------------5-5-5-5-|--------------------------|
|--------------------------|-0------------------------|
|--------------------------|--------------------------|

 Angie                         ain't it time we say good 
 E7                          Gsus4    G  F4 F  
|--------0----------0------|--------------------------|
|----3-3-3------3-3-3------|----3--3--3---------------|
|----4-4-4------4-4-4------|----5--5--4--3--2---------|
|--------------------------|-5--5--5--5--3--3---------|
|--------------------------|--------------------------|
|--------------------------|--------------------------|

                          INTERLUDE
Bye                         yeah
    Csus4  C         G       Am
|------0----------0--------|---------------5-5-5-3----|
|-----------------1--------|---------------5-5-5-3--5-|
|---0----------------------|------------------------5-|
|---3-----2-------------0--|--------------------------|
|---3-----3----------2-----|-0------------------------|
|--------------------------|--------------------------|


 E7                         G   Gsus4 G  F4 F
|-----0-----0--0-------0---|--------------------------|
|---3---3---3----3---3---0-|-------3--3---------------|
|---------4-4------4-------|-4--5--5--4--3--2---------|
|--------------------------|-5-----5-----3--3---------|
|--------------------------|--------------------------|
|-0------------------------|--------------------------|


                            CHORUS
                   With no  lovin in our souls and no
  C                    G       
|----0--------------0------|5-5-5-5-5-5-5-5-5-5-5-5-5-5-X|
|-------------------X--3-3-|3---3---3---3---3-------3---X|
|-0-------------0---0--4-4-|----4-----------4-------4---X|
|-2-------3p2-0h2---X--5-5-|----------------5-------5----|
|-3-------------3---X------|-----------------------------|
|--------------------------|-----------------------------|


money in our coats            uh, you can't say we're satisfied
 Dm          Am             C             F
|------------------0-0-----|----3-3--3-------3------3-|
|----3-----0h1-----1-------|----1----1-------1-1-1--1-|
|----2--X--0h2--2-----2---0|----0---------2--2---2----|
|-0-----X-------2-------0--|-2---------2--3------3----|
|--------------------------|-3---------3--------------| 
|--------------------------|--------------------------|

                             BRIDGE
                        But angie  I still love you baby
 G                           Dm
|----5-5-5-3---5-3-----5-0-|----1-1--1--1----1-1-----0|
|--------3---3-3-3-----3-0-|-3----3--3--3--3---3--0---|
|-4--------------4---4-4---|-2----2-----2--2---2--0---|
|-5----------------5---5---|-0--------------------0---|
|--------------------------|--------------------------|
|--------------------------|--------------------------|

                           Every were I look i see you eyes
 Am                         Dm
|-----0-0-0-0-0-0-0-0-0-0-0|---1-1----0-X-----1------0|
|-----1-----1-----1-----0-0|-3-3-3----3-------3----0--|
|--------------------------|-2-2-----------2--2----0--|
|-2------------------------|-0---------------------0--|
|-0------------------------|--------------------------|
|--------------------------|--------------------------|

                             there ain't  a woman that comes
Am                          Dm
|-----0----0-----------0-0-|--1-1-1------1-0-1-1---0-0|
|-----1----------------0---|--3---3--2---3---3-3---0-0|
|--------2------2---2------|X-----2------------2---0-0|
|-2------2------2---2------|0-------------------------|
|-0-----------0------------|--------------------------|
|--------------------------|--------------------------|

clost to you               come on baby dry  you eyes
  Am                         C            F
|----------0---0-0---0-----|---3-3--3--------3-3------|
|--------------1-----------|---1-1--1--------1---1--X-|
|-----2--2---------2-------|---0----------2--2------X-|
|-2---2--2---------2-------|-2-2------2-2-3---------X-|
|-0---0------------0---0-2-|-3--------3---------------|
|--------------------------|--------------------------|

                            VERSE
                            Angie
  G                         Am
|---5-5-5-3----3-3----5p3-3|---------5-5-5-3----------|
|-3-3---3-3----3-3----3---3|---------5-5-5-3-5--------|
|-4----------4-4----4-----4|-----------------5--------|
|-5------------5----5-----5|--------------------------|
|--------------------------|-0------------------------|
|--------------------------|--------------------------|


Angie                        aint it good to be alive?
 E7                          Gsus4     G  F4 F
|-----0-----0--0-------0---|--------------------------|
|---3---3---3----3---3---0-|-------3--3---------------|
|---------4-4------4-------|-4--5--5--4--3--2---------|
|--------------------------|-5-----5-----3--3---------|
|--------------------------|--------------------------|
|-0------------------------|--------------------------|



LEGEND:

{12} 12th fret harmonic
F4 is short for Fsus4
h hammer on
p pull off
X fret hand mute






ROLLING STONES Chords - angie4 Tabs, Tab for Guitar

Site contains ROLLING STONES tabs (tablatures), chords, song lyrics of popular songs, compilations.
You may find angie4 - ROLLING STONES tab, lyric, free tabs for guitars and basses here.


© 2002 TabPower.com All tabs are the author's own work and represents their interpretation of the ROLLING STONES song.
You may only use this ROLLING STONES tab for private study, scholarship, or research.
angie4 Tab by ROLLING STONES Tabs/Chords/Tablatures
Online Guitar Lessons