LED ZEPPELIN Tabs, whole lotta love5
Search tabs by artist/band name or song title:  

LED ZEPPELIN Tabs - whole lotta love5 Guitar Tablatures, Chords






whole lotta love5 tabs @ 911Tabs
#----------------------------------PLEASE NOTE----------------------------------#
# This file is the author's own work and represents their interpretation of the #
# song. You may only use this file for private study, scholarship, or research. #
#-------------------------------------------------------------------------------#

Hi everybody.

Sorry for yet another Whole Lotta Love tab but I think everybody's missed something.

Aside from the main riff:

e|-------------------------|--------------------|----
B|-------------------------|--------------------|----
G|---------------------9---|--------------------|----
D|--------0------0-----9---|-------9---------9--|----
A|--------5~-----5~----7---|-------7---------7--|----
E|-----7------7--------0---|-0-0---0---0--0--0--|----

Intro = last bar x2 (do the riff twice)
followed by exact above for verse riff.

Then Chorus riff: (Wanna Whole Lotta Love)

e|-------------------------|--------------------|----
B|-------------------------|--------------------|----
G|-7-7-7-7-7----9-----9----|---9----------------|----
D|-7-7-7-7-7----9-----9----|---9----------------|----
A|-7-7-7-7-7----7-----7----|---7----------------|----
E|-0-0-0-0-0----0-0-0-0-0--|-0-0----------------|----

But my main point is in the coda - play that cd again - the main riff changes slightly once or twice but you need this change for ultimate imitation.

e|-------------------------|--------------------|----
B|-------------------------|--------------------|----
G|-------------------------|--------------------|----
D|-----0------7--6-------6-|-----6--------------|----
A|-----5~--------5-------5-|-----5--------------|----
E|--7------7-----0--0-0--0-|-0-0-0--------------|----

Thanks for listening...

JIMMY PAGE THE SECOND
(Well, not actually)

Flatcaps - Jimmy Page wannabe





LED ZEPPELIN Chords - whole lotta love5 Tabs, Tab for Guitar

Site contains LED ZEPPELIN tabs (tablatures), chords, song lyrics of popular songs, compilations.
You may find whole lotta love5 - LED ZEPPELIN tab, lyric, free tabs for guitars and basses here.


© 2002 TabPower.com All tabs are the author's own work and represents their interpretation of the LED ZEPPELIN song.
You may only use this LED ZEPPELIN tab for private study, scholarship, or research.
whole lotta love5 Tab by LED ZEPPELIN Tabs/Chords/Tablatures
Online Guitar Lessons