BLACK SABBATH Tabs, children of the grave 2
Search tabs by artist/band name or song title:  

BLACK SABBATH Tabs - children of the grave 2 Guitar Tablatures, Chords






children of the grave 2 tabs @ 911Tabs
#----------------------------------PLEASE NOTE----------------------------------#
# This file is the author's own work and represents their interpretation of the #
# song. You may only use this file for private study, scholarship, or research. #
#-------------------------------------------------------------------------------#

hello all, yeah it's chris again the person who hates this site. oh
yeah, darren, if you see this, sometimes its fun to figure out a song
and the go back to the site and see how wrong the tabs for it are.
ok so heres some parts of children of the grave by black sabbath who 
ROCKS unlike half the garbage that gets deals now.


intro: low octave of Db power chords if you can figure that out
intro~~16 measures
riff:

e------------------------------------------------------------------
b------------------------------------------------------------------
g------------------------------------------------------------------
d---6-66666-66666-6666---------------------------------------------
a---4-44444-44444-4444--7-6----------------------------------------
e-----------------------5-4----------------------------------------

repeat 2x then second part:

e------------------------------------------------------------------
b------------------------------------------------------------------
g------------------------------------------------------------------
d---4/6--9-------------9-------------------------------------------
a---2/4--7-7-77-7/9-99-7-------------------------------------------
e----------5-55-5/7-77---------------------------------------------

back to main riff, play main riff 2x
play second riff once, then ozzy starts singin.....while he sings,
play main riff 7x but instead of the

e--------------
b--------------
g--------------
d--------------
a--7-6---------
e--5-4--------- at the end of the palm muting, do this:

e----12\----
b----12\----
g----12\----
d-----------
a-----------
e----------- with some killer reverb.

play 2nd riff once, and back to main riff 2x and then when ozzy sings
play the main riff with the tweak at the end 8x. then go back to the 
second riff and play that once. then theres a blues scale riff and 
thats this:

d---------------10----------------
a--------8-9-10----------8-10b-9-8
e---8-11------------8-11---------- play that 4x

then it has a break similar to the one in iron man, so this is that:

a-6-9-6--5-4--4/5-5/6
e-4-7-4--3-2--2/3-3/4 play that 4x then back to the main riff 2x then
the second riff once then the main riff 2x then the verse riff 5x
then the second riff once then the solo which i am way to tired to type 
im getting a freakin headache from this damn screen.....then play the
second riff once then that part dada doodoo deedee yeayea well you 
know figure it out yourself then play the song so there ya have it
an hours work for ya rite there...as you know, tabs blow so dont use 
this do it yourself if u use it your officially a poser. :)

go to my site:
www.geocities.com/chrislindsay17/chrislindsay17.html

cya l8a



TABS BLOOOOOOWWWWWWWW






BLACK SABBATH Chords - children of the grave 2 Tabs, Tab for Guitar

Site contains BLACK SABBATH tabs (tablatures), chords, song lyrics of popular songs, compilations.
You may find children of the grave 2 - BLACK SABBATH tab, lyric, free tabs for guitars and basses here.


© 2002 TabPower.com All tabs are the author's own work and represents their interpretation of the BLACK SABBATH song.
You may only use this BLACK SABBATH tab for private study, scholarship, or research.
children of the grave 2 Tab by BLACK SABBATH Tabs/Chords/Tablatures
Online Guitar Lessons