RADIOHEAD Tabs, street spirit3
Search tabs by artist/band name or song title:  

RADIOHEAD Tabs - street spirit3 Guitar Tablatures, Chords






street spirit3 tabs @ 911Tabs
#----------------------------------PLEASE NOTE----------------------------------#
# This file is the author's own work and represents their interpretation of the #
# song. You may only use this file for private study, scholarship, or research. #
#-------------------------------------------------------------------------------#

RADIOHEAD - STREET SPIRIT

Intro: Am (4x)

Am	       Am 			
rows of houses all bearing down on me
Am	         Am
i can feel their blue hands touching me

Em
all these things into position
Em
all these things well one day swallow hole

Am (2x)

    C     Em   Am    Am
and fade  out  again
    C     Em
and fade  out

Am		    Am
this machine will   will not communicate
Am			      Am
these thoughts and the strain i am under

Em
be a world child from a circle
Em
before we all go under

Am (2x)

    C     Em   Am    Am
and fade  out  again
    C     Em   Am    Am
and fade  out  again

C     Em   Am
ohhh  ohhh ohhh
C    Em   Am
ohhh ohhh ohhh


Am			Am
cracked eggs dead birds scream as they fight for life
Am	         Am
i can feel death can see its beady eyes

Em
all this things into position
Em
all this things well one day swallow hole

Am (2x)

    C     Em   Am     Am
and fade  out  again
    C     Em   Am     Am
and fade  out  again

C    Em   Am   Am
ohhh ohhh ohhh
C    Em   Am
ohhh ohhh ohhh
C    Em
ohhh ohhh

C	Em	  Am       Am
immerse your soul in love
C	E         Am
immerse your soul in love

Am:
E-----------0-----------0-----------0------------------ 
B-----------------3-----------1-----------0------------ 
G--------------2-----2-----2-----2-----2-----2------2-- 
D--------2---------------------------------------2----- 
A----0-------------------------------------------------
E------------------------------------------------------ 

C:
E---------0------------0-----------0-------------------
B----------------3-----------1-----------0-------------
G------0------0-----0-----0-----0-----0-----0-----0----
D----------------------------------------------2-------
A--3---------------------------------------------------
E------------------------------------------------------

Em:
E-----------0-----------0-----------0------------------
B-----------------3-----------1-----------0------------ 
G--------0-----0-----0-----0-----0-----0-----0-----0--- 
D-----------------------------------------------2------
A------------------------------------------------------ 
E--0---------------------------------------------------






RADIOHEAD Chords - street spirit3 Tabs, Tab for Guitar

Site contains RADIOHEAD tabs (tablatures), chords, song lyrics of popular songs, compilations.
You may find street spirit3 - RADIOHEAD tab, lyric, free tabs for guitars and basses here.


© 2002 TabPower.com All tabs are the author's own work and represents their interpretation of the RADIOHEAD song.
You may only use this RADIOHEAD tab for private study, scholarship, or research.
street spirit3 Tab by RADIOHEAD Tabs/Chords/Tablatures
Online Guitar Lessons