RADIOHEAD Tabs, talk show host2
Search tabs by artist/band name or song title:  

RADIOHEAD Tabs - talk show host2 Guitar Tablatures, Chords






talk show host2 tabs @ 911Tabs
#----------------------------------PLEASE NOTE----------------------------------#
# This file is the author's own work and represents their interpretation of the #
# song. You may only use this file for private study, scholarship, or research. #
#-------------------------------------------------------------------------------#


Author/Artist: Radiohead
Title: Talk Show Host
Album: Romeo and Juliet Soundtrack
Transcribed by: Brady Custis
Email: Weezeppelin88@aol.com

its really easy and the same thing the whole way through... enjoy

-------|----------------------------------------------------------------------
-------|--8-8----8-----8------------------------------------------------------
-------|--8-8----7-----5------------------------------------------------------
-------|----------------------------------------------------------------------
-------|----------------------------------------------------------------------
--6-8--|----------------------------------------------------------------------
 Bass^ |   repeat this over                                                   

------------------------------------------------------------------------------
------------------------------------------------------------------------------
----------8-------------------------------------------------------------------
----6-5-----------------------------------------------------------------------
------------------------------------------------------------------------------
------------------------------------------------------------------------------
 this is the little guitar part heard during the "chorus"                     







RADIOHEAD Chords - talk show host2 Tabs, Tab for Guitar

Site contains RADIOHEAD tabs (tablatures), chords, song lyrics of popular songs, compilations.
You may find talk show host2 - RADIOHEAD tab, lyric, free tabs for guitars and basses here.


© 2002 TabPower.com All tabs are the author's own work and represents their interpretation of the RADIOHEAD song.
You may only use this RADIOHEAD tab for private study, scholarship, or research.
talk show host2 Tab by RADIOHEAD Tabs/Chords/Tablatures
Online Guitar Lessons