ROLLING STONES Tabs, angie5
Search tabs by artist/band name or song title:  

ROLLING STONES Tabs - angie5 Guitar Tablatures, Chords






angie5 tabs @ 911Tabs
#----------------------------------PLEASE NOTE----------------------------------#
# This file is the author's own work and represents their interpretation of the #
# song. You may only use this file for private study, scholarship, or research. #
#-------------------------------------------------------------------------------#

	***************************************************************************	
	Angie
		by Rolling Stones
	***************************************************************************

	Transcribed by Soenen Martijn (martijnsoenen@hotmail.com) 22:06 12/01/2001

	Chords used in this song:

		EADGBE

	Am      x02210
	Dm      x00231
	E       022100
	E7	022130
	G       354433	
	F       132211


	Harmonic    Am                       E

	|--------|--0---0---3^0--------0---|--------0-----------------------|
	|--------|--1---1---1-------1-----1|------0---0--------0------------|
	|--------|--2---2---2----2---------|----1-------1---1--1------------|
	|--------|--2---2---2--------------|--------------2-2---------------|
	|--12----|-------------------------|--------------------------------|
	|--------|-------------------------|-0------------------------------|
 
	  G                 F              F               C

	|---------3---------1-1----------|-1---------1--------------------|
	|-------3---3-------1-1----------|---1----------------------------|
	|-----5-------5-----3-2----------|--------2----------0-0----------|
	|--5------------5---3-3----------|------3------------3-2----------|
	|--------------------------------|-----------------3--------------|
	|--------------------------------|--------------------------------|
	
	  Em7           Am
	|--------------------0--0--0--0--0--0--0--0--0-------|
	|-------0-------0^1--1--1-----------------------3--1-|
	|---------0-----2----2--2----------------------------|
	|----0----------2----2--2----------------------------|
	|--2------------0------------------------------------|
	|----------------------------------------------------|
		  > Angie,

	E7
	Angie
	G               F                C     E
	When will those dark clouds disappear?

	Am     E7
	Angie, Angie
	G                  F            C      E
	Where were will it lead us from here?
		G
	With no loving in our souls
	       Dm               Am
	and no money in our coats
	C               F              G
	   Oh you can't say we're satisfied
	Am     E7
	Angie, Angie
	G           F            C
	  you can't say we never tried

	Angie you're beautiful but ain't it time we said goodbye
	Angie I still love you remember all those nights we cried
	All the dreams we held so close seemed to all go up in smoke
	Let me whisper in your ear Angie, Angie where will it lead us from here
	Angie, where will it lead us from here.		(Instrumental)

	Oh Angie don't you weep all your kisses still taste sweet
	I hate that sadness in your eyes but
	Angie, Angie ain't it time we said goodbye (Instrumental)

	With no loving in our souls and no money in our coats
	You can't say we're satisfied
	But Angie, Angie, I still love you baby.

	    Dm                      Am
	but Angie, I still love you baby
	Dm                               Am
	   Every where I look I see your eyes
	Dm                                Am
	   There ain't a woman that comes close to you
	C          F             G
	   Come on baby dry your eyes

	Angie, Angie
	Ain't it good to be alive
	Angie, Angie
	They can't say we never tried

	***************************************************************************
        More Tabs At:       http://members.fortunecity.com/dmedm/gitaar/guitar.htm
	***************************************************************************







ROLLING STONES Chords - angie5 Tabs, Tab for Guitar

Site contains ROLLING STONES tabs (tablatures), chords, song lyrics of popular songs, compilations.
You may find angie5 - ROLLING STONES tab, lyric, free tabs for guitars and basses here.


© 2002 TabPower.com All tabs are the author's own work and represents their interpretation of the ROLLING STONES song.
You may only use this ROLLING STONES tab for private study, scholarship, or research.
angie5 Tab by ROLLING STONES Tabs/Chords/Tablatures
Online Guitar Lessons