GUNS N ROSES Tabs, dont cry4
Search tabs by artist/band name or song title:  

GUNS N ROSES Tabs - dont cry4 Guitar Tablatures, Chords






dont cry4 tabs @ 911Tabs
#----------------------------------PLEASE NOTE----------------------------------#
# This file is the author's own work and represents their interpretation of the #
# song. You may only use this file for private study, scholarship, or research. #
#-------------------------------------------------------------------------------#



From: Jonatan D. (jonatan8540@todito.com)

I think this tab is a litlle better than the others. However, this is my firs tab, For any errors or corrections please mail me.


Riff 1

                          Am                       Dm                   G
----------------------------0--------------------------1---------------------3--------------------------------------
-------------------------------1-------------------3-----3----------------0---0------------0-------0-------------
-----------------------2---------2-------------2-----------2-----------0--------0-------0-------0---------------
--------------------2---------------2--0----------------------0-----0--------------0--3------2--------3-2-0----
---------------0----------------------------------------------------2------------------------------------------------
---3-----------------------------------------------------------------------------------------------------------------

Then repeat the Am and Dm arpeggios and end with:

--------------------------------------------------------------------------------------
--------------------------------------------------------------------------------------
---------------0---------------------------------------------------------------------
------------0------------------------------------------------------------------------
---------2--------------------5---5----6---7--------------------------------------
------3-----------------------3---3----4---5--------------------------------------

For the verses just repeat the First riff.
For the chorus use the F, G and Am.







GUNS N ROSES Chords - dont cry4 Tabs, Tab for Guitar

Site contains GUNS N ROSES tabs (tablatures), chords, song lyrics of popular songs, compilations.
You may find dont cry4 - GUNS N ROSES tab, lyric, free tabs for guitars and basses here.


© 2002 TabPower.com All tabs are the author's own work and represents their interpretation of the GUNS N ROSES song.
You may only use this GUNS N ROSES tab for private study, scholarship, or research.
dont cry4 Tab by GUNS N ROSES Tabs/Chords/Tablatures
Online Guitar Lessons